  0
SECTION
  2
HEADER
  9
$ACADVER
  1
AC1006
  9
$DWGCODEPAGE
  3
ansi_932
  9
$INSBASE
 10
0.0
 20
0.0
 30
0.0
  9
$EXTMIN
 10
9.999999999665306
 20
10.00000000033469
  9
$EXTMAX
 10
409.9999999996653
 20
287.0000000003347
  9
$LIMMIN
 10
9.999999999665306
 20
10.00000000033469
  9
$LIMMAX
 10
409.9999999996653
 20
287.0000000003347
  9
$ORTHOMODE
 70
     0
  9
$REGENMODE
 70
     1
  9
$FILLMODE
 70
     1
  9
$QTEXTMODE
 70
     0
  9
$MIRRTEXT
 70
     1
  9
$DRAGMODE
 70
     2
  9
$LTSCALE
 40
1.0
  9
$OSMODE
 70
    37
  9
$ATTMODE
 70
     1
  9
$TEXTSIZE
 40
0.2
  9
$TRACEWID
 40
0.05
  9
$TEXTSTYLE
  7
STANDARD
  9
$CLAYER
  8
0
  9
$CELTYPE
  6
BYLAYER
  9
$CECOLOR
 62
     1
  9
$DIMSCALE
 40
1.0
  9
$DIMASZ
 40
0.18
  9
$DIMEXO
 40
0.0625
  9
$DIMDLI
 40
0.38
  9
$DIMRND
 40
0.0
  9
$DIMDLE
 40
0.0
  9
$DIMEXE
 40
0.18
  9
$DIMTP
 40
0.0
  9
$DIMTM
 40
0.0
  9
$DIMTXT
 40
0.18
  9
$DIMCEN
 40
0.09
  9
$DIMTSZ
 40
0.0
  9
$DIMTOL
 70
     0
  9
$DIMLIM
 70
     0
  9
$DIMTIH
 70
     1
  9
$DIMTOH
 70
     1
  9
$DIMSE1
 70
     0
  9
$DIMSE2
 70
     0
  9
$DIMTAD
 70
     0
  9
$DIMZIN
 70
     0
  9
$DIMBLK
  1

  9
$DIMASO
 70
     1
  9
$DIMSHO
 70
     1
  9
$DIMPOST
  1

  9
$DIMAPOST
  1

  9
$DIMALT
 70
     0
  9
$DIMALTD
 70
     2
  9
$DIMALTF
 40
25.4
  9
$DIMLFAC
 40
1.0
  9
$DIMTOFL
 70
     0
  9
$DIMTVP
 40
0.0
  9
$DIMTIX
 70
     0
  9
$DIMSOXD
 70
     0
  9
$DIMSAH
 70
     0
  9
$DIMBLK1
  1

  9
$DIMBLK2
  1

  9
$LUNITS
 70
     2
  9
$LUPREC
 70
     4
  9
$SKETCHINC
 40
0.1
  9
$FILLETRAD
 40
0.5
  9
$AUNITS
 70
     0
  9
$AUPREC
 70
     0
  9
$MENU
  1
.
  9
$ELEVATION
 40
0.0
  9
$THICKNESS
 40
0.0
  9
$LIMCHECK
 70
     0
  9
$CHAMFERA
 40
0.0
  9
$CHAMFERB
 40
0.0
  9
$SKPOLY
 70
     0
  9
$TDCREATE
 40
2459594.351017847
  9
$TDUPDATE
 40
2459709.162494734
  9
$TDINDWG
 40
0.0020731944
  9
$TDUSRTIMER
 40
2459594.357278021
  9
$USRTIMER
 70
     1
  9
$ANGBASE
 50
0.0
  9
$ANGDIR
 70
     0
  9
$PDMODE
 70
     0
  9
$PDSIZE
 40
0.0
  9
$PLINEWID
 40
0.0
  9
$COORDS
 70
     1
  9
$SPLFRAME
 70
     0
  9
$SPLINETYPE
 70
     6
  9
$SPLINESEGS
 70
     8
  9
$ATTDIA
 70
     0
  9
$ATTREQ
 70
     1
  9
$HANDLING
 70
     1
  9
$HANDSEED
  5
23F
  9
$SURFTAB1
 70
     6
  9
$SURFTAB2
 70
     6
  9
$SURFTYPE
 70
     6
  9
$SURFU
 70
     6
  9
$SURFV
 70
     6
  9
$UCSNAME
  2

  9
$UCSORG
 10
0.0
 20
0.0
 30
0.0
  9
$UCSXDIR
 10
1.0
 20
0.0
 30
0.0
  9
$UCSYDIR
 10
0.0
 20
1.0
 30
0.0
  9
$USERI1
 70
     0
  9
$USERI2
 70
     0
  9
$USERI3
 70
     0
  9
$USERI4
 70
     0
  9
$USERI5
 70
     0
  9
$USERR1
 40
0.0
  9
$USERR2
 40
0.0
  9
$USERR3
 40
0.0
  9
$USERR4
 40
0.0
  9
$USERR5
 40
0.0
  9
$WORLDVIEW
 70
     1
  0
ENDSEC
  0
SECTION
  2
TABLES
  0
TABLE
  2
VPORT
 70
     1
  0
VPORT
  2
*ACTIVE
 70
     0
 10
0.0
 20
0.0
 11
1.0
 21
1.0
 12
235.4489386373384
 22
223.1043055939379
 13
0.0
 23
0.0
 14
0.5
 24
0.5
 15
0.5
 25
0.5
 16
0.0
 26
0.0
 36
1.0
 17
0.0
 27
0.0
 37
0.0
 40
74.06616576000003
 41
2.007957559681698
 42
50.0
 43
0.0
 44
0.0
 50
0.0
 51
0.0
 71
    16
 72
  1000
 73
     1
 74
     3
 75
     0
 76
     0
 77
     0
 78
     0
  0
ENDTAB
  0
TABLE
  2
LTYPE
 70
     2
  0
LTYPE
  2
CONTINUOUS
 70
     0
  3
Solid line
 72
    65
 73
     0
 40
0.0
  0
LTYPE
  2
DASHED
 70
     0
  3
_____ _____ _____ _____ _____
 72
    65
 73
     2
 40
7.5
 49
6.0
 49
-1.5
  0
ENDTAB
  0
TABLE
  2
LAYER
 70
     3
  0
LAYER
  2
0
 70
     0
 62
     7
  6
CONTINUOUS
  0
LAYER
  2
D-TTL-BAND
 70
     0
 62
     7
  6
CONTINUOUS
  0
LAYER
  2
D-BGD
 70
     0
 62
     7
  6
CONTINUOUS
  0
ENDTAB
  0
TABLE
  2
STYLE
 70
     3
  0
STYLE
  2
STANDARD
 70
     0
 40
0.0
 41
1.0
 50
0.0
 71
     0
 42
0.2
  3
txt
  4

  0
STYLE
  2
STANDARD-FC
 70
     0
 40
0.0
 41
1.0
 50
0.0
 71
     0
 42
0.2
  3
txt
  4
bigfont
  0
STYLE
  2
ＭＳ_ゴシック
 70
     0
 40
0.0
 41
1.0
 50
0.0
 71
     0
 42
0.2
  3
msgothic.ttc
  4

  0
ENDTAB
  0
TABLE
  2
VIEW
 70
     0
  0
ENDTAB
  0
TABLE
  2
UCS
 70
     0
  0
ENDTAB
  0
ENDSEC
  0
SECTION
  2
BLOCKS
  0
ENDSEC
  0
SECTION
  2
ENTITIES
  0
TEXT
  5
73
  8
D-TTL-BAND
  6
CONTINUOUS
 62
     7
 10
219.8696273101228
 20
161.6206293610581
 30
0.0
 40
1.915708812260537
  1
道路
  7
ＭＳ_ゴシック
  0
LINE
  5
74
  8
D-TTL-BAND
  6
CONTINUOUS
 62
     7
 10
53.0
 20
50.0
 30
0.0
 11
263.0
 21
50.0
 31
0.0
  0
LINE
  5
75
  8
D-TTL-BAND
  6
CONTINUOUS
 62
     7
 10
263.0
 20
50.0
 30
0.0
 11
263.0
 21
30.0
 31
0.0
  0
LINE
  5
76
  8
D-TTL-BAND
  6
CONTINUOUS
 62
     7
 10
263.0
 20
30.0
 30
0.0
 11
53.0
 21
30.0
 31
0.0
  0
LINE
  5
77
  8
D-TTL-BAND
  6
CONTINUOUS
 62
     7
 10
53.0
 20
30.0
 30
0.0
 11
53.0
 21
50.0
 31
0.0
  0
LINE
  5
78
  8
D-TTL-BAND
  6
CONTINUOUS
 62
     7
 10
53.0
 20
65.0
 30
0.0
 11
263.0
 21
65.0
 31
0.0
  0
LINE
  5
79
  8
D-TTL-BAND
  6
CONTINUOUS
 62
     7
 10
263.0
 20
65.0
 30
0.0
 11
263.0
 21
51.0
 31
0.0
  0
LINE
  5
7A
  8
D-TTL-BAND
  6
CONTINUOUS
 62
     7
 10
263.0
 20
51.0
 30
0.0
 11
53.0
 21
51.0
 31
0.0
  0
LINE
  5
7B
  8
D-TTL-BAND
  6
CONTINUOUS
 62
     7
 10
53.0
 20
51.0
 30
0.0
 11
53.0
 21
65.0
 31
0.0
  0
LINE
  5
7C
  8
D-TTL-BAND
  6
CONTINUOUS
 62
     7
 10
53.0
 20
80.0
 30
0.0
 11
263.0
 21
80.0
 31
0.0
  0
LINE
  5
7D
  8
D-TTL-BAND
  6
CONTINUOUS
 62
     7
 10
263.0
 20
80.0
 30
0.0
 11
263.0
 21
66.0
 31
0.0
  0
LINE
  5
7E
  8
D-TTL-BAND
  6
CONTINUOUS
 62
     7
 10
263.0
 20
66.0
 30
0.0
 11
53.0
 21
66.0
 31
0.0
  0
LINE
  5
7F
  8
D-TTL-BAND
  6
CONTINUOUS
 62
     7
 10
53.0
 20
66.0
 30
0.0
 11
53.0
 21
80.0
 31
0.0
  0
LINE
  5
80
  8
D-TTL-BAND
  6
CONTINUOUS
 62
     7
 10
53.0
 20
95.0
 30
0.0
 11
263.0
 21
95.0
 31
0.0
  0
LINE
  5
81
  8
D-TTL-BAND
  6
CONTINUOUS
 62
     7
 10
263.0
 20
95.0
 30
0.0
 11
263.0
 21
81.0
 31
0.0
  0
LINE
  5
82
  8
D-TTL-BAND
  6
CONTINUOUS
 62
     7
 10
263.0
 20
81.0
 30
0.0
 11
53.0
 21
81.0
 31
0.0
  0
LINE
  5
83
  8
D-TTL-BAND
  6
CONTINUOUS
 62
     7
 10
53.0
 20
81.0
 30
0.0
 11
53.0
 21
95.0
 31
0.0
  0
LINE
  5
84
  8
D-TTL-BAND
  6
CONTINUOUS
 62
     7
 10
53.0
 20
110.0
 30
0.0
 11
263.0
 21
110.0
 31
0.0
  0
LINE
  5
85
  8
D-TTL-BAND
  6
CONTINUOUS
 62
     7
 10
263.0
 20
110.0
 30
0.0
 11
263.0
 21
96.0
 31
0.0
  0
LINE
  5
86
  8
D-TTL-BAND
  6
CONTINUOUS
 62
     7
 10
263.0
 20
96.0
 30
0.0
 11
53.0
 21
96.0
 31
0.0
  0
LINE
  5
87
  8
D-TTL-BAND
  6
CONTINUOUS
 62
     7
 10
53.0
 20
96.0
 30
0.0
 11
53.0
 21
110.0
 31
0.0
  0
LINE
  5
88
  8
D-TTL-BAND
  6
CONTINUOUS
 62
     7
 10
53.0
 20
125.0
 30
0.0
 11
263.0
 21
125.0
 31
0.0
  0
LINE
  5
89
  8
D-TTL-BAND
  6
CONTINUOUS
 62
     7
 10
263.0
 20
125.0
 30
0.0
 11
263.0
 21
111.0
 31
0.0
  0
LINE
  5
8A
  8
D-TTL-BAND
  6
CONTINUOUS
 62
     7
 10
263.0
 20
111.0
 30
0.0
 11
53.0
 21
111.0
 31
0.0
  0
LINE
  5
8B
  8
D-TTL-BAND
  6
CONTINUOUS
 62
     7
 10
53.0
 20
111.0
 30
0.0
 11
53.0
 21
125.0
 31
0.0
  0
LINE
  5
8C
  8
D-TTL-BAND
  6
CONTINUOUS
 62
     7
 10
53.0
 20
140.0
 30
0.0
 11
263.0
 21
140.0
 31
0.0
  0
LINE
  5
8D
  8
D-TTL-BAND
  6
CONTINUOUS
 62
     7
 10
263.0
 20
140.0
 30
0.0
 11
263.0
 21
126.0
 31
0.0
  0
LINE
  5
8E
  8
D-TTL-BAND
  6
CONTINUOUS
 62
     7
 10
263.0
 20
126.0
 30
0.0
 11
53.0
 21
126.0
 31
0.0
  0
LINE
  5
8F
  8
D-TTL-BAND
  6
CONTINUOUS
 62
     7
 10
53.0
 20
126.0
 30
0.0
 11
53.0
 21
140.0
 31
0.0
  0
LINE
  5
90
  8
D-TTL-BAND
  6
CONTINUOUS
 62
     7
 10
33.0
 20
30.0
 30
0.0
 11
33.0
 21
95.0
 31
0.0
  0
LINE
  5
91
  8
D-TTL-BAND
  6
CONTINUOUS
 62
     7
 10
33.0
 20
95.0
 30
0.0
 11
42.0
 21
95.0
 31
0.0
  0
LINE
  5
92
  8
D-TTL-BAND
  6
CONTINUOUS
 62
     7
 10
42.0
 20
95.0
 30
0.0
 11
42.0
 21
30.0
 31
0.0
  0
LINE
  5
93
  8
D-TTL-BAND
  6
CONTINUOUS
 62
     7
 10
42.0
 20
30.0
 30
0.0
 11
33.0
 21
30.0
 31
0.0
  0
TEXT
  5
94
  8
D-TTL-BAND
  6
CONTINUOUS
 62
     7
 10
38.75639164039963
 20
45.0
 30
0.0
 40
2.681992337164751
  1
現況
 50
90.00000000000001
  7
ＭＳ_ゴシック
  0
LINE
  5
95
  8
D-TTL-BAND
  6
CONTINUOUS
 62
     7
 10
33.0
 20
96.0
 30
0.0
 11
33.0
 21
140.0
 31
0.0
  0
LINE
  5
96
  8
D-TTL-BAND
  6
CONTINUOUS
 62
     7
 10
33.0
 20
140.0
 30
0.0
 11
42.0
 21
140.0
 31
0.0
  0
LINE
  5
97
  8
D-TTL-BAND
  6
CONTINUOUS
 62
     7
 10
42.0
 20
140.0
 30
0.0
 11
42.0
 21
96.0
 31
0.0
  0
LINE
  5
98
  8
D-TTL-BAND
  6
CONTINUOUS
 62
     7
 10
42.0
 20
96.0
 30
0.0
 11
33.0
 21
96.0
 31
0.0
  0
TEXT
  5
99
  8
D-TTL-BAND
  6
CONTINUOUS
 62
     7
 10
38.75639164039963
 20
111.0
 30
0.0
 40
2.681992337164751
  1
計画
 50
90.00000000000001
  7
ＭＳ_ゴシック
  0
LINE
  5
9A
  8
D-TTL-BAND
  6
CONTINUOUS
 62
     7
 10
43.0
 20
50.0
 30
0.0
 11
52.0
 21
50.0
 31
0.0
  0
LINE
  5
9B
  8
D-TTL-BAND
  6
CONTINUOUS
 62
     7
 10
52.0
 20
50.0
 30
0.0
 11
52.0
 21
30.0
 31
0.0
  0
LINE
  5
9C
  8
D-TTL-BAND
  6
CONTINUOUS
 62
     7
 10
52.0
 20
30.0
 30
0.0
 11
43.0
 21
30.0
 31
0.0
  0
LINE
  5
9D
  8
D-TTL-BAND
  6
CONTINUOUS
 62
     7
 10
43.0
 20
30.0
 30
0.0
 11
43.0
 21
50.0
 31
0.0
  0
TEXT
  5
9E
  8
D-TTL-BAND
  6
CONTINUOUS
 62
     7
 10
48.75639164039963
 20
31.5
 30
0.0
 40
2.681992337164751
  1
測点
 50
90.00000000000001
  7
ＭＳ_ゴシック
  0
LINE
  5
9F
  8
D-TTL-BAND
  6
CONTINUOUS
 62
     7
 10
43.0
 20
65.0
 30
0.0
 11
52.0
 21
65.0
 31
0.0
  0
LINE
  5
A0
  8
D-TTL-BAND
  6
CONTINUOUS
 62
     7
 10
52.0
 20
65.0
 30
0.0
 11
52.0
 21
51.0
 31
0.0
  0
LINE
  5
A1
  8
D-TTL-BAND
  6
CONTINUOUS
 62
     7
 10
52.0
 20
51.0
 30
0.0
 11
43.0
 21
51.0
 31
0.0
  0
LINE
  5
A2
  8
D-TTL-BAND
  6
CONTINUOUS
 62
     7
 10
43.0
 20
51.0
 30
0.0
 11
43.0
 21
65.0
 31
0.0
  0
TEXT
  5
A3
  8
D-TTL-BAND
  6
CONTINUOUS
 62
     7
 10
48.75639164039963
 20
52.5
 30
0.0
 40
2.681992337164751
  1
単距
 50
90.00000000000001
  7
ＭＳ_ゴシック
  0
LINE
  5
A4
  8
D-TTL-BAND
  6
CONTINUOUS
 62
     7
 10
43.0
 20
80.0
 30
0.0
 11
52.0
 21
80.0
 31
0.0
  0
LINE
  5
A5
  8
D-TTL-BAND
  6
CONTINUOUS
 62
     7
 10
52.0
 20
80.0
 30
0.0
 11
52.0
 21
66.0
 31
0.0
  0
LINE
  5
A6
  8
D-TTL-BAND
  6
CONTINUOUS
 62
     7
 10
52.0
 20
66.0
 30
0.0
 11
43.0
 21
66.0
 31
0.0
  0
LINE
  5
A7
  8
D-TTL-BAND
  6
CONTINUOUS
 62
     7
 10
43.0
 20
66.0
 30
0.0
 11
43.0
 21
80.0
 31
0.0
  0
TEXT
  5
A8
  8
D-TTL-BAND
  6
CONTINUOUS
 62
     7
 10
48.75639164039963
 20
67.5
 30
0.0
 40
2.681992337164751
  1
累距
 50
90.00000000000001
  7
ＭＳ_ゴシック
  0
LINE
  5
A9
  8
D-TTL-BAND
  6
CONTINUOUS
 62
     7
 10
43.0
 20
95.0
 30
0.0
 11
52.0
 21
95.0
 31
0.0
  0
LINE
  5
AA
  8
D-TTL-BAND
  6
CONTINUOUS
 62
     7
 10
52.0
 20
95.0
 30
0.0
 11
52.0
 21
81.0
 31
0.0
  0
LINE
  5
AB
  8
D-TTL-BAND
  6
CONTINUOUS
 62
     7
 10
52.0
 20
81.0
 30
0.0
 11
43.0
 21
81.0
 31
0.0
  0
LINE
  5
AC
  8
D-TTL-BAND
  6
CONTINUOUS
 62
     7
 10
43.0
 20
81.0
 30
0.0
 11
43.0
 21
95.0
 31
0.0
  0
LINE
  5
AD
  8
D-TTL-BAND
  6
CONTINUOUS
 62
     7
 10
43.0
 20
110.0
 30
0.0
 11
52.0
 21
110.0
 31
0.0
  0
LINE
  5
AE
  8
D-TTL-BAND
  6
CONTINUOUS
 62
     7
 10
52.0
 20
110.0
 30
0.0
 11
52.0
 21
96.0
 31
0.0
  0
LINE
  5
AF
  8
D-TTL-BAND
  6
CONTINUOUS
 62
     7
 10
52.0
 20
96.0
 30
0.0
 11
43.0
 21
96.0
 31
0.0
  0
LINE
  5
B0
  8
D-TTL-BAND
  6
CONTINUOUS
 62
     7
 10
43.0
 20
96.0
 30
0.0
 11
43.0
 21
110.0
 31
0.0
  0
TEXT
  5
B1
  8
D-TTL-BAND
  6
CONTINUOUS
 62
     7
 10
48.75639164039963
 20
97.5
 30
0.0
 40
2.681992337164751
  1
計画高
 50
90.00000000000001
  7
ＭＳ_ゴシック
  0
LINE
  5
B2
  8
D-TTL-BAND
  6
CONTINUOUS
 62
     7
 10
43.0
 20
125.0
 30
0.0
 11
52.0
 21
125.0
 31
0.0
  0
LINE
  5
B3
  8
D-TTL-BAND
  6
CONTINUOUS
 62
     7
 10
52.0
 20
125.0
 30
0.0
 11
52.0
 21
111.0
 31
0.0
  0
LINE
  5
B4
  8
D-TTL-BAND
  6
CONTINUOUS
 62
     7
 10
52.0
 20
111.0
 30
0.0
 11
43.0
 21
111.0
 31
0.0
  0
LINE
  5
B5
  8
D-TTL-BAND
  6
CONTINUOUS
 62
     7
 10
43.0
 20
111.0
 30
0.0
 11
43.0
 21
125.0
 31
0.0
  0
LINE
  5
B6
  8
D-TTL-BAND
  6
CONTINUOUS
 62
     7
 10
43.0
 20
140.0
 30
0.0
 11
52.0
 21
140.0
 31
0.0
  0
LINE
  5
B7
  8
D-TTL-BAND
  6
CONTINUOUS
 62
     7
 10
52.0
 20
140.0
 30
0.0
 11
52.0
 21
126.0
 31
0.0
  0
LINE
  5
B8
  8
D-TTL-BAND
  6
CONTINUOUS
 62
     7
 10
52.0
 20
126.0
 30
0.0
 11
43.0
 21
126.0
 31
0.0
  0
LINE
  5
B9
  8
D-TTL-BAND
  6
CONTINUOUS
 62
     7
 10
43.0
 20
126.0
 30
0.0
 11
43.0
 21
140.0
 31
0.0
  0
TEXT
  5
BA
  8
D-TTL-BAND
  6
CONTINUOUS
 62
     7
 10
79.24999616858238
 20
31.0
 30
0.0
 40
2.681992337164751
  1
A
 50
90.00000000000001
  7
ＭＳ_ゴシック
  0
TEXT
  5
BB
  8
D-TTL-BAND
  6
CONTINUOUS
 62
     7
 10
133.5499961685824
 20
31.0
 30
0.0
 40
2.681992337164751
  1
B
 50
90.00000000000001
  7
ＭＳ_ゴシック
  0
TEXT
  5
BC
  8
D-TTL-BAND
  6
CONTINUOUS
 62
     7
 10
144.3259961685823
 20
31.0
 30
0.0
 40
2.681992337164751
  1
肩
 50
90.00000000000001
  7
ＭＳ_ゴシック
  0
TEXT
  5
BD
  8
D-TTL-BAND
  6
CONTINUOUS
 62
     7
 10
180.8019961685823
 20
31.0
 30
0.0
 40
2.681992337164751
  1
C
 50
90.00000000000001
  7
ＭＳ_ゴシック
  0
TEXT
  5
BE
  8
D-TTL-BAND
  6
CONTINUOUS
 62
     7
 10
187.3999961685823
 20
31.0
 30
0.0
 40
2.681992337164751
  1
交点
 50
90.00000000000001
  7
ＭＳ_ゴシック
  0
TEXT
  5
BF
  8
D-TTL-BAND
  6
CONTINUOUS
 62
     7
 10
217.4139961685823
 20
31.0
 30
0.0
 40
2.681992337164751
  1
D
 50
90.00000000000001
  7
ＭＳ_ゴシック
  0
TEXT
  5
C0
  8
D-TTL-BAND
  6
CONTINUOUS
 62
     7
 10
79.24999616858238
 20
55.2802549998395
 30
0.0
 40
2.681992337164751
  1
0.000
 50
90.00000000000001
  7
ＭＳ_ゴシック
 72
     2
 11
77.909
 21
64.0
 31
0.0
  0
TEXT
  5
C1
  8
D-TTL-BAND
  6
CONTINUOUS
 62
     7
 10
133.5499961685824
 20
53.5363059998074
 30
0.0
 40
2.681992337164751
  1
27.150
 50
90.00000000000001
  7
ＭＳ_ゴシック
 72
     2
 11
132.209
 21
64.0
 31
0.0
  0
TEXT
  5
C2
  8
D-TTL-BAND
  6
CONTINUOUS
 62
     7
 10
144.3259961685823
 20
55.2802549998395
 30
0.0
 40
2.681992337164751
  1
5.388
 50
90.00000000000001
  7
ＭＳ_ゴシック
 72
     2
 11
142.985
 21
64.0
 31
0.0
  0
TEXT
  5
C3
  8
D-TTL-BAND
  6
CONTINUOUS
 62
     7
 10
180.8019961685823
 20
53.5363059998074
 30
0.0
 40
2.681992337164751
  1
18.238
 50
90.00000000000001
  7
ＭＳ_ゴシック
 72
     2
 11
179.461
 21
64.0
 31
0.0
  0
TEXT
  5
C4
  8
D-TTL-BAND
  6
CONTINUOUS
 62
     7
 10
187.3999961685823
 20
55.2802549998395
 30
0.0
 40
2.681992337164751
  1
3.299
 50
90.00000000000001
  7
ＭＳ_ゴシック
 72
     2
 11
186.059
 21
64.0
 31
0.0
  0
TEXT
  5
C5
  8
D-TTL-BAND
  6
CONTINUOUS
 62
     7
 10
217.4139961685823
 20
53.5363059998074
 30
0.0
 40
2.681992337164751
  1
15.007
 50
90.00000000000001
  7
ＭＳ_ゴシック
 72
     2
 11
216.073
 21
64.0
 31
0.0
  0
TEXT
  5
C6
  8
D-TTL-BAND
  6
CONTINUOUS
 62
     7
 10
79.24999616858238
 20
70.2802549998395
 30
0.0
 40
2.681992337164751
  1
0.000
 50
90.00000000000001
  7
ＭＳ_ゴシック
 72
     2
 11
77.909
 21
79.0
 31
0.0
  0
TEXT
  5
C7
  8
D-TTL-BAND
  6
CONTINUOUS
 62
     7
 10
133.5499961685824
 20
68.5363059998074
 30
0.0
 40
2.681992337164751
  1
27.150
 50
90.00000000000001
  7
ＭＳ_ゴシック
 72
     2
 11
132.209
 21
79.0
 31
0.0
  0
TEXT
  5
C8
  8
D-TTL-BAND
  6
CONTINUOUS
 62
     7
 10
144.3259961685823
 20
68.5363059998074
 30
0.0
 40
2.681992337164751
  1
32.538
 50
90.00000000000001
  7
ＭＳ_ゴシック
 72
     2
 11
142.985
 21
79.0
 31
0.0
  0
TEXT
  5
C9
  8
D-TTL-BAND
  6
CONTINUOUS
 62
     7
 10
180.8019961685823
 20
68.5363059998074
 30
0.0
 40
2.681992337164751
  1
50.776
 50
90.00000000000001
  7
ＭＳ_ゴシック
 72
     2
 11
179.461
 21
79.0
 31
0.0
  0
TEXT
  5
CA
  8
D-TTL-BAND
  6
CONTINUOUS
 62
     7
 10
187.3999961685823
 20
68.5363059998074
 30
0.0
 40
2.681992337164751
  1
54.075
 50
90.00000000000001
  7
ＭＳ_ゴシック
 72
     2
 11
186.059
 21
79.0
 31
0.0
  0
TEXT
  5
CB
  8
D-TTL-BAND
  6
CONTINUOUS
 62
     7
 10
217.4139961685823
 20
68.5363059998074
 30
0.0
 40
2.681992337164751
  1
69.082
 50
90.00000000000001
  7
ＭＳ_ゴシック
 72
     2
 11
216.073
 21
79.0
 31
0.0
  0
LINE
  5
CC
  8
D-TTL-BAND
  6
CONTINUOUS
 62
     7
 10
28.0
 20
25.0
 30
0.0
 11
48.0
 21
25.0
 31
0.0
  0
LINE
  5
CD
  8
D-TTL-BAND
  6
CONTINUOUS
 62
     7
 10
48.0
 20
25.0
 30
0.0
 11
46.5
 21
25.375
 31
0.0
  0
TEXT
  5
CE
  8
D-TTL-BAND
  6
CONTINUOUS
 62
     7
 10
32.75
 20
21.99360835960037
 30
0.0
 40
2.681992337164751
  1
1：500
  7
ＭＳ_ゴシック
  0
LINE
  5
CF
  8
D-TTL-BAND
  6
CONTINUOUS
 62
     7
 10
28.0
 20
25.0
 30
0.0
 11
28.0
 21
45.0
 31
0.0
  0
LINE
  5
D0
  8
D-TTL-BAND
  6
CONTINUOUS
 62
     7
 10
28.0
 20
45.0
 30
0.0
 11
27.625
 21
43.5
 31
0.0
  0
TEXT
  5
D1
  8
D-TTL-BAND
  6
CONTINUOUS
 62
     7
 10
27.50639164039963
 20
29.75
 30
0.0
 40
2.681992337164751
  1
1：100
 50
90.00000000000001
  7
ＭＳ_ゴシック
  0
LINE
  5
D2
  8
D-TTL-BAND
  6
CONTINUOUS
 62
     7
 10
33.0
 20
142.0
 30
0.0
 11
263.0
 21
142.0
 31
0.0
  0
TEXT
  5
D3
  8
D-TTL-BAND
  6
CONTINUOUS
 62
     7
 10
28.5
 20
143.2051547994291
 30
0.0
 40
3.831417624521073
  1
DL=10.000
  7
ＭＳ_ゴシック
  0
LINE
  5
D4
  8
D-TTL-BAND
  6
CONTINUOUS
 62
     7
 10
53.0
 20
142.0
 30
0.0
 11
53.0
 21
262.0
 31
0.0
  0
LINE
  5
D5
  8
D-TTL-BAND
  6
CONTINUOUS
 62
     7
 10
53.0
 20
192.0
 30
0.0
 11
38.0
 21
192.0
 31
0.0
  0
TEXT
  5
D6
  8
D-TTL-BAND
  6
CONTINUOUS
 62
     7
 10
41.5
 20
192.9936083596004
 30
0.0
 40
2.681992337164751
  1
15.000
  7
ＭＳ_ゴシック
  0
LINE
  5
D7
  8
D-TTL-BAND
  6
CONTINUOUS
 62
     7
 10
53.0
 20
242.0
 30
0.0
 11
38.0
 21
242.0
 31
0.0
  0
TEXT
  5
D8
  8
D-TTL-BAND
  6
CONTINUOUS
 62
     7
 10
41.5
 20
242.9936083596004
 30
0.0
 40
2.681992337164751
  1
20.000
  7
ＭＳ_ゴシック
  0
LINE
  5
D9
  8
D-TTL-BAND
  6
CONTINUOUS
 62
     7
 10
53.0
 20
152.0
 30
0.0
 11
48.0
 21
152.0
 31
0.0
  0
LINE
  5
DA
  8
D-TTL-BAND
  6
CONTINUOUS
 62
     7
 10
53.0
 20
162.0
 30
0.0
 11
48.0
 21
162.0
 31
0.0
  0
LINE
  5
DB
  8
D-TTL-BAND
  6
CONTINUOUS
 62
     7
 10
53.0
 20
172.0
 30
0.0
 11
48.0
 21
172.0
 31
0.0
  0
LINE
  5
DC
  8
D-TTL-BAND
  6
CONTINUOUS
 62
     7
 10
53.0
 20
182.0
 30
0.0
 11
48.0
 21
182.0
 31
0.0
  0
LINE
  5
DD
  8
D-TTL-BAND
  6
CONTINUOUS
 62
     7
 10
53.0
 20
202.0
 30
0.0
 11
48.0
 21
202.0
 31
0.0
  0
LINE
  5
DE
  8
D-TTL-BAND
  6
CONTINUOUS
 62
     7
 10
53.0
 20
212.0
 30
0.0
 11
48.0
 21
212.0
 31
0.0
  0
LINE
  5
DF
  8
D-TTL-BAND
  6
CONTINUOUS
 62
     7
 10
53.0
 20
222.0
 30
0.0
 11
48.0
 21
222.0
 31
0.0
  0
LINE
  5
E0
  8
D-TTL-BAND
  6
CONTINUOUS
 62
     7
 10
53.0
 20
232.0
 30
0.0
 11
48.0
 21
232.0
 31
0.0
  0
LINE
  5
E1
  8
D-TTL-BAND
  6
CONTINUOUS
 62
     7
 10
53.0
 20
252.0
 30
0.0
 11
48.0
 21
252.0
 31
0.0
  0
LINE
  5
E2
  8
D-TTL-BAND
  6
CONTINUOUS
 62
     7
 10
53.0
 20
262.0
 30
0.0
 11
48.0
 21
262.0
 31
0.0
  0
TEXT
  5
E3
  8
D-TTL-BAND
  6
CONTINUOUS
 62
     7
 10
48.75639164039963
 20
82.5
 30
0.0
 40
2.681992337164751
  1
地盤高
 50
90.00000000000001
  7
ＭＳ_ゴシック
  0
TEXT
  5
E4
  8
D-TTL-BAND
  6
CONTINUOUS
 62
     7
 10
48.75639164039963
 20
112.5
 30
0.0
 40
2.681992337164751
  1
切土
 50
90.00000000000001
  7
ＭＳ_ゴシック
  0
TEXT
  5
E5
  8
D-TTL-BAND
  6
CONTINUOUS
 62
     7
 10
48.75639164039963
 20
127.5
 30
0.0
 40
2.681992337164751
  1
盛土
 50
90.00000000000001
  7
ＭＳ_ゴシック
  0
LINE
  5
E6
  8
D-TTL-BAND
  6
CONTINUOUS
 62
     7
 10
78.0
 20
246.7
 30
0.0
 11
78.0
 21
142.0
 31
0.0
  0
LINE
  5
E7
  8
D-TTL-BAND
  6
CONTINUOUS
 62
     7
 10
78.0
 20
50.0
 30
0.0
 11
78.0
 21
51.0
 31
0.0
  0
LINE
  5
E8
  8
D-TTL-BAND
  6
CONTINUOUS
 62
     7
 10
78.0
 20
65.0
 30
0.0
 11
78.0
 21
66.0
 31
0.0
  0
LINE
  5
E9
  8
D-TTL-BAND
  6
CONTINUOUS
 62
     7
 10
78.0
 20
80.0
 30
0.0
 11
78.0
 21
81.0
 31
0.0
  0
LINE
  5
EA
  8
D-TTL-BAND
  6
CONTINUOUS
 62
     7
 10
78.0
 20
95.0
 30
0.0
 11
78.0
 21
96.0
 31
0.0
  0
LINE
  5
EB
  8
D-TTL-BAND
  6
CONTINUOUS
 62
     7
 10
78.0
 20
110.0
 30
0.0
 11
78.0
 21
111.0
 31
0.0
  0
LINE
  5
EC
  8
D-TTL-BAND
  6
CONTINUOUS
 62
     7
 10
78.0
 20
125.0
 30
0.0
 11
78.0
 21
126.0
 31
0.0
  0
LINE
  5
ED
  8
D-TTL-BAND
  6
CONTINUOUS
 62
     7
 10
132.3
 20
245.7
 30
0.0
 11
132.3
 21
142.0
 31
0.0
  0
LINE
  5
EE
  8
D-TTL-BAND
  6
CONTINUOUS
 62
     7
 10
132.3
 20
50.0
 30
0.0
 11
132.3
 21
51.0
 31
0.0
  0
LINE
  5
EF
  8
D-TTL-BAND
  6
CONTINUOUS
 62
     7
 10
132.3
 20
65.0
 30
0.0
 11
132.3
 21
66.0
 31
0.0
  0
LINE
  5
F0
  8
D-TTL-BAND
  6
CONTINUOUS
 62
     7
 10
132.3
 20
80.0
 30
0.0
 11
132.3
 21
81.0
 31
0.0
  0
LINE
  5
F1
  8
D-TTL-BAND
  6
CONTINUOUS
 62
     7
 10
132.3
 20
95.0
 30
0.0
 11
132.3
 21
96.0
 31
0.0
  0
LINE
  5
F2
  8
D-TTL-BAND
  6
CONTINUOUS
 62
     7
 10
132.3
 20
110.0
 30
0.0
 11
132.3
 21
111.0
 31
0.0
  0
LINE
  5
F3
  8
D-TTL-BAND
  6
CONTINUOUS
 62
     7
 10
132.3
 20
125.0
 30
0.0
 11
132.3
 21
126.0
 31
0.0
  0
LINE
  5
F4
  8
D-TTL-BAND
  6
CONTINUOUS
 62
     7
 10
143.076
 20
239.5
 30
0.0
 11
143.076
 21
142.0
 31
0.0
  0
LINE
  5
F5
  8
D-TTL-BAND
  6
CONTINUOUS
 62
     7
 10
143.076
 20
50.0
 30
0.0
 11
143.076
 21
51.0
 31
0.0
  0
LINE
  5
F6
  8
D-TTL-BAND
  6
CONTINUOUS
 62
     7
 10
143.076
 20
65.0
 30
0.0
 11
143.076
 21
66.0
 31
0.0
  0
LINE
  5
F7
  8
D-TTL-BAND
  6
CONTINUOUS
 62
     7
 10
143.076
 20
80.0
 30
0.0
 11
143.076
 21
81.0
 31
0.0
  0
LINE
  5
F8
  8
D-TTL-BAND
  6
CONTINUOUS
 62
     7
 10
143.076
 20
95.0
 30
0.0
 11
143.076
 21
96.0
 31
0.0
  0
LINE
  5
F9
  8
D-TTL-BAND
  6
CONTINUOUS
 62
     7
 10
143.076
 20
110.0
 30
0.0
 11
143.076
 21
111.0
 31
0.0
  0
LINE
  5
FA
  8
D-TTL-BAND
  6
CONTINUOUS
 62
     7
 10
143.076
 20
125.0
 30
0.0
 11
143.076
 21
126.0
 31
0.0
  0
LINE
  5
FB
  8
D-TTL-BAND
  6
CONTINUOUS
 62
     7
 10
179.552
 20
194.6
 30
0.0
 11
179.552
 21
142.0
 31
0.0
  0
LINE
  5
FC
  8
D-TTL-BAND
  6
CONTINUOUS
 62
     7
 10
179.552
 20
50.0
 30
0.0
 11
179.552
 21
51.0
 31
0.0
  0
LINE
  5
FD
  8
D-TTL-BAND
  6
CONTINUOUS
 62
     7
 10
179.552
 20
65.0
 30
0.0
 11
179.552
 21
66.0
 31
0.0
  0
LINE
  5
FE
  8
D-TTL-BAND
  6
CONTINUOUS
 62
     7
 10
179.552
 20
80.0
 30
0.0
 11
179.552
 21
81.0
 31
0.0
  0
LINE
  5
FF
  8
D-TTL-BAND
  6
CONTINUOUS
 62
     7
 10
179.552
 20
95.0
 30
0.0
 11
179.552
 21
96.0
 31
0.0
  0
LINE
  5
100
  8
D-TTL-BAND
  6
CONTINUOUS
 62
     7
 10
179.552
 20
110.0
 30
0.0
 11
179.552
 21
111.0
 31
0.0
  0
LINE
  5
101
  8
D-TTL-BAND
  6
CONTINUOUS
 62
     7
 10
179.552
 20
125.0
 30
0.0
 11
179.552
 21
126.0
 31
0.0
  0
LINE
  5
102
  8
D-TTL-BAND
  6
CONTINUOUS
 62
     7
 10
186.15
 20
192.5
 30
0.0
 11
186.15
 21
142.0
 31
0.0
  0
LINE
  5
103
  8
D-TTL-BAND
  6
CONTINUOUS
 62
     7
 10
186.15
 20
50.0
 30
0.0
 11
186.15
 21
51.0
 31
0.0
  0
LINE
  5
104
  8
D-TTL-BAND
  6
CONTINUOUS
 62
     7
 10
186.15
 20
65.0
 30
0.0
 11
186.15
 21
66.0
 31
0.0
  0
LINE
  5
105
  8
D-TTL-BAND
  6
CONTINUOUS
 62
     7
 10
186.15
 20
80.0
 30
0.0
 11
186.15
 21
81.0
 31
0.0
  0
LINE
  5
106
  8
D-TTL-BAND
  6
CONTINUOUS
 62
     7
 10
186.15
 20
95.0
 30
0.0
 11
186.15
 21
96.0
 31
0.0
  0
LINE
  5
107
  8
D-TTL-BAND
  6
CONTINUOUS
 62
     7
 10
186.15
 20
110.0
 30
0.0
 11
186.15
 21
111.0
 31
0.0
  0
LINE
  5
108
  8
D-TTL-BAND
  6
CONTINUOUS
 62
     7
 10
186.15
 20
125.0
 30
0.0
 11
186.15
 21
126.0
 31
0.0
  0
LINE
  5
109
  8
D-TTL-BAND
  6
CONTINUOUS
 62
     7
 10
216.164
 20
160.1
 30
0.0
 11
216.164
 21
142.0
 31
0.0
  0
LINE
  5
10A
  8
D-TTL-BAND
  6
CONTINUOUS
 62
     7
 10
216.164
 20
50.0
 30
0.0
 11
216.164
 21
51.0
 31
0.0
  0
LINE
  5
10B
  8
D-TTL-BAND
  6
CONTINUOUS
 62
     7
 10
216.164
 20
65.0
 30
0.0
 11
216.164
 21
66.0
 31
0.0
  0
LINE
  5
10C
  8
D-TTL-BAND
  6
CONTINUOUS
 62
     7
 10
216.164
 20
80.0
 30
0.0
 11
216.164
 21
81.0
 31
0.0
  0
LINE
  5
10D
  8
D-TTL-BAND
  6
CONTINUOUS
 62
     7
 10
216.164
 20
95.0
 30
0.0
 11
216.164
 21
96.0
 31
0.0
  0
LINE
  5
10E
  8
D-TTL-BAND
  6
CONTINUOUS
 62
     7
 10
216.164
 20
110.0
 30
0.0
 11
216.164
 21
111.0
 31
0.0
  0
LINE
  5
10F
  8
D-TTL-BAND
  6
CONTINUOUS
 62
     7
 10
216.164
 20
125.0
 30
0.0
 11
216.164
 21
126.0
 31
0.0
  0
LINE
  5
110
  8
D-BGD
  6
CONTINUOUS
 62
     7
 10
78.0
 20
246.7
 30
0.0
 11
89.286
 21
241.9
 31
0.0
  0
LINE
  5
111
  8
D-BGD
  6
CONTINUOUS
 62
     7
 10
89.286
 20
241.9
 30
0.0
 11
102.938
 21
236.9
 31
0.0
  0
LINE
  5
112
  8
D-BGD
  6
CONTINUOUS
 62
     7
 10
102.938
 20
236.9
 30
0.0
 11
124.856
 21
243.2
 31
0.0
  0
LINE
  5
113
  8
D-BGD
  6
CONTINUOUS
 62
     7
 10
124.856
 20
243.2
 30
0.0
 11
132.3
 21
245.7
 31
0.0
  0
LINE
  5
114
  8
D-BGD
  6
CONTINUOUS
 62
     7
 10
132.3
 20
245.7
 30
0.0
 11
133.33
 21
247.3
 31
0.0
  0
LINE
  5
115
  8
D-BGD
  6
CONTINUOUS
 62
     7
 10
133.33
 20
247.3
 30
0.0
 11
136.25
 21
242.0
 31
0.0
  0
LINE
  5
116
  8
D-BGD
  6
CONTINUOUS
 62
     7
 10
136.25
 20
242.0
 30
0.0
 11
143.076
 21
239.5
 31
0.0
  0
LINE
  5
117
  8
D-BGD
  6
CONTINUOUS
 62
     7
 10
143.076
 20
239.5
 30
0.0
 11
146.918
 21
231.2
 31
0.0
  0
LINE
  5
118
  8
D-BGD
  6
CONTINUOUS
 62
     7
 10
146.918
 20
231.2
 30
0.0
 11
154.132
 21
220.4
 31
0.0
  0
LINE
  5
119
  8
D-BGD
  6
CONTINUOUS
 62
     7
 10
154.132
 20
220.4
 30
0.0
 11
166.56
 21
208.7
 31
0.0
  0
LINE
  5
11A
  8
D-BGD
  6
CONTINUOUS
 62
     7
 10
166.56
 20
208.7
 30
0.0
 11
179.552
 21
194.6
 31
0.0
  0
LINE
  5
11B
  8
D-BGD
  6
CONTINUOUS
 62
     7
 10
179.552
 20
194.6
 30
0.0
 11
186.15
 21
192.5
 31
0.0
  0
LINE
  5
11C
  8
D-BGD
  6
CONTINUOUS
 62
     7
 10
186.15
 20
192.5
 30
0.0
 11
195.382
 21
188.5
 31
0.0
  0
LINE
  5
11D
  8
D-BGD
  6
CONTINUOUS
 62
     7
 10
195.382
 20
188.5
 30
0.0
 11
205.322
 21
187.4
 31
0.0
  0
LINE
  5
11E
  8
D-BGD
  6
CONTINUOUS
 62
     7
 10
205.322
 20
187.4
 30
0.0
 11
214.066
 21
161.9
 31
0.0
  0
LINE
  5
11F
  8
D-BGD
  6
CONTINUOUS
 62
     7
 10
214.066
 20
161.9
 30
0.0
 11
216.164
 21
160.1
 31
0.0
  0
LINE
  5
120
  8
D-BGD
  6
CONTINUOUS
 62
     7
 10
216.164
 20
160.1
 30
0.0
 11
222.664
 21
160.5
 31
0.0
  0
LINE
  5
121
  8
D-BGD
  6
DASHED
 62
     7
 10
229.164
 20
159.1
 30
0.0
 11
229.164
 21
161.1
 31
0.0
  0
LINE
  5
122
  8
D-BGD
  6
CONTINUOUS
 62
     7
 10
222.664
 20
160.5
 30
0.0
 11
229.164
 21
161.1
 31
0.0
  0
TEXT
  5
123
  8
D-TTL-BAND
  6
CONTINUOUS
 62
     7
 10
79.24999616858238
 20
85.2802549998395
 30
0.0
 40
2.681992337164751
  1
20.47
 50
90.00000000000001
  7
ＭＳ_ゴシック
 72
     2
 11
77.909
 21
94.0
 31
0.0
  0
TEXT
  5
124
  8
D-TTL-BAND
  6
CONTINUOUS
 62
     7
 10
133.5499961685824
 20
85.2802549998395
 30
0.0
 40
2.681992337164751
  1
20.37
 50
90.00000000000001
  7
ＭＳ_ゴシック
 72
     2
 11
132.209
 21
94.0
 31
0.0
  0
TEXT
  5
125
  8
D-TTL-BAND
  6
CONTINUOUS
 62
     7
 10
144.3259961685823
 20
85.2802549998395
 30
0.0
 40
2.681992337164751
  1
19.75
 50
90.00000000000001
  7
ＭＳ_ゴシック
 72
     2
 11
142.985
 21
94.0
 31
0.0
  0
TEXT
  5
126
  8
D-TTL-BAND
  6
CONTINUOUS
 62
     7
 10
180.8019961685823
 20
85.2802549998395
 30
0.0
 40
2.681992337164751
  1
15.26
 50
90.00000000000001
  7
ＭＳ_ゴシック
 72
     2
 11
179.461
 21
94.0
 31
0.0
  0
TEXT
  5
127
  8
D-TTL-BAND
  6
CONTINUOUS
 62
     7
 10
187.3999961685823
 20
85.2802549998395
 30
0.0
 40
2.681992337164751
  1
15.05
 50
90.00000000000001
  7
ＭＳ_ゴシック
 72
     2
 11
186.059
 21
94.0
 31
0.0
  0
TEXT
  5
128
  8
D-TTL-BAND
  6
CONTINUOUS
 62
     7
 10
217.4139961685823
 20
85.2802549998395
 30
0.0
 40
2.681992337164751
  1
11.81
 50
90.00000000000001
  7
ＭＳ_ゴシック
 72
     2
 11
216.073
 21
94.0
 31
0.0
  0
POLYLINE
  5
129
  8
D-BGD
  6
CONTINUOUS
 62
     7
 66
     1
 10
0.0
 20
0.0
 30
0.0
 70
   128
  0
VERTEX
  5
239
  8
D-BGD
  6
CONTINUOUS
 62
     7
 10
9.999999999665306
 20
287.0000000003347
 30
0.0
  0
VERTEX
  5
23A
  8
D-BGD
  6
CONTINUOUS
 62
     7
 10
409.9999999996653
 20
287.0000000003347
 30
0.0
  0
VERTEX
  5
23B
  8
D-BGD
  6
CONTINUOUS
 62
     7
 10
409.9999999996653
 20
10.00000000033469
 30
0.0
  0
VERTEX
  5
23C
  8
D-BGD
  6
CONTINUOUS
 62
     7
 10
9.999999999665306
 20
10.00000000033469
 30
0.0
  0
VERTEX
  5
23D
  8
D-BGD
  6
CONTINUOUS
 62
     7
 10
9.999999999665306
 20
287.0000000003347
 30
0.0
  0
SEQEND
  5
23E
  8
D-BGD
  6
CONTINUOUS
 62
     7
  0
LINE
  5
132
  8
0
 62
     1
 10
78.14367993384504
 20
246.6388921068176
 30
0.0
 11
216.164
 21
160.1
 31
0.0
  0
TEXT
  5
15E
  8
D-TTL-BAND
  6
CONTINUOUS
 62
     7
 10
210.1421121183099
 20
155.325710929106
 30
0.0
 40
5.363984674329502
  1
D
 50
360.0
  7
ＭＳ_ゴシック
  0
TEXT
  5
15F
  8
D-TTL-BAND
  6
CONTINUOUS
 62
     7
 10
174.1200460493424
 20
189.9290053248298
 30
0.0
 40
5.363984674329502
  1
C
 50
360.0
  7
ＭＳ_ゴシック
  0
TEXT
  5
160
  8
D-TTL-BAND
  6
CONTINUOUS
 62
     7
 10
127.177905999042
 20
246.4192556699119
 30
0.0
 40
5.363984674329502
  1
B
 50
360.0
  7
ＭＳ_ゴシック
  0
TEXT
  5
161
  8
D-TTL-BAND
  6
CONTINUOUS
 62
     7
 10
72.3678348877423
 20
247.8020871867712
 30
0.0
 40
5.363984674329502
  1
A
 50
360.0
  7
ＭＳ_ゴシック
  0
TEXT
  5
18A
  8
D-TTL-BAND
  6
CONTINUOUS
 62
     7
 10
172.4911481909827
 20
250.6628003234835
 30
0.0
 40
3.831417624521073
  1
AE高低差：20.47m - 11.81m = 8.66m
  7
ＭＳ_ゴシック
  0
TEXT
  5
1B3
  8
D-TTL-BAND
  6
CONTINUOUS
 62
     7
 10
172.4911481909827
 20
245.1618649354729
 30
0.0
 40
3.831417624521073
  1
AE距離：69.082m　AE高低差：8.66m ⇒ AE斜度：7.15°
  7
ＭＳ_ゴシック
  0
TEXT
  5
206
  8
D-TTL-BAND
  6
CONTINUOUS
 62
     7
 10
172.2280349518952
 20
230.1102681490538
 30
0.0
 40
3.831417624521073
  1
BE距離：69.082m - 27.150m = 41.932m
  7
ＭＳ_ゴシック
  0
TEXT
  5
207
  8
D-TTL-BAND
  6
CONTINUOUS
 62
     7
 10
172.2280349518952
 20
224.6093327610432
 30
0.0
 40
3.831417624521073
  1
BE距離：41.932m　BE高低差：8.56m ⇒ BE斜度：11.54°
  7
ＭＳ_ゴシック
  0
TEXT
  5
230
  8
D-TTL-BAND
  6
CONTINUOUS
 62
     7
 10
172.3201265041498
 20
235.2090704255525
 30
0.0
 40
3.831417624521073
  1
BE高低差：20.37m - 11.81m = 8.56m
  7
ＭＳ_ゴシック
  0
LINE
  5
231
  8
0
 62
     1
 10
132.3
 20
245.7
 30
0.0
 11
216.164
 21
160.1
 31
0.0
  0
ENDSEC
  0
EOF
