  0
SECTION
  2
HEADER
  9
$ACADVER
  1
AC1006
  9
$DWGCODEPAGE
  3
ansi_932
  9
$INSBASE
 10
0.0
 20
0.0
 30
0.0
  9
$EXTMIN
 10
9.999999999665306
 20
10.00000000033469
  9
$EXTMAX
 10
409.9999999996653
 20
287.0000000003347
  9
$LIMMIN
 10
9.999999999665306
 20
10.00000000033469
  9
$LIMMAX
 10
409.9999999996653
 20
287.0000000003347
  9
$ORTHOMODE
 70
     0
  9
$REGENMODE
 70
     1
  9
$FILLMODE
 70
     1
  9
$QTEXTMODE
 70
     0
  9
$MIRRTEXT
 70
     1
  9
$DRAGMODE
 70
     2
  9
$LTSCALE
 40
1.0
  9
$OSMODE
 70
    37
  9
$ATTMODE
 70
     1
  9
$TEXTSIZE
 40
0.2
  9
$TRACEWID
 40
0.05
  9
$TEXTSTYLE
  7
STANDARD
  9
$CLAYER
  8
0
  9
$CELTYPE
  6
BYLAYER
  9
$CECOLOR
 62
   256
  9
$DIMSCALE
 40
1.0
  9
$DIMASZ
 40
0.18
  9
$DIMEXO
 40
0.0625
  9
$DIMDLI
 40
0.38
  9
$DIMRND
 40
0.0
  9
$DIMDLE
 40
0.0
  9
$DIMEXE
 40
0.18
  9
$DIMTP
 40
0.0
  9
$DIMTM
 40
0.0
  9
$DIMTXT
 40
0.18
  9
$DIMCEN
 40
0.09
  9
$DIMTSZ
 40
0.0
  9
$DIMTOL
 70
     0
  9
$DIMLIM
 70
     0
  9
$DIMTIH
 70
     1
  9
$DIMTOH
 70
     1
  9
$DIMSE1
 70
     0
  9
$DIMSE2
 70
     0
  9
$DIMTAD
 70
     0
  9
$DIMZIN
 70
     0
  9
$DIMBLK
  1

  9
$DIMASO
 70
     1
  9
$DIMSHO
 70
     1
  9
$DIMPOST
  1

  9
$DIMAPOST
  1

  9
$DIMALT
 70
     0
  9
$DIMALTD
 70
     2
  9
$DIMALTF
 40
25.4
  9
$DIMLFAC
 40
1.0
  9
$DIMTOFL
 70
     0
  9
$DIMTVP
 40
0.0
  9
$DIMTIX
 70
     0
  9
$DIMSOXD
 70
     0
  9
$DIMSAH
 70
     0
  9
$DIMBLK1
  1

  9
$DIMBLK2
  1

  9
$LUNITS
 70
     2
  9
$LUPREC
 70
     4
  9
$SKETCHINC
 40
0.1
  9
$FILLETRAD
 40
0.5
  9
$AUNITS
 70
     0
  9
$AUPREC
 70
     0
  9
$MENU
  1
.
  9
$ELEVATION
 40
0.0
  9
$THICKNESS
 40
0.0
  9
$LIMCHECK
 70
     0
  9
$CHAMFERA
 40
0.0
  9
$CHAMFERB
 40
0.0
  9
$SKPOLY
 70
     0
  9
$TDCREATE
 40
2459594.351192824
  9
$TDUPDATE
 40
2459709.162948854
  9
$TDINDWG
 40
0.0000000116
  9
$TDUSRTIMER
 40
0.0000000116
  9
$USRTIMER
 70
     1
  9
$ANGBASE
 50
0.0
  9
$ANGDIR
 70
     0
  9
$PDMODE
 70
     0
  9
$PDSIZE
 40
0.0
  9
$PLINEWID
 40
0.0
  9
$COORDS
 70
     1
  9
$SPLFRAME
 70
     0
  9
$SPLINETYPE
 70
     6
  9
$SPLINESEGS
 70
     8
  9
$ATTDIA
 70
     0
  9
$ATTREQ
 70
     1
  9
$HANDLING
 70
     1
  9
$HANDSEED
  5
120
  9
$SURFTAB1
 70
     6
  9
$SURFTAB2
 70
     6
  9
$SURFTYPE
 70
     6
  9
$SURFU
 70
     6
  9
$SURFV
 70
     6
  9
$UCSNAME
  2

  9
$UCSORG
 10
0.0
 20
0.0
 30
0.0
  9
$UCSXDIR
 10
1.0
 20
0.0
 30
0.0
  9
$UCSYDIR
 10
0.0
 20
1.0
 30
0.0
  9
$USERI1
 70
     0
  9
$USERI2
 70
     0
  9
$USERI3
 70
     0
  9
$USERI4
 70
     0
  9
$USERI5
 70
     0
  9
$USERR1
 40
0.0
  9
$USERR2
 40
0.0
  9
$USERR3
 40
0.0
  9
$USERR4
 40
0.0
  9
$USERR5
 40
0.0
  9
$WORLDVIEW
 70
     1
  0
ENDSEC
  0
SECTION
  2
TABLES
  0
TABLE
  2
VPORT
 70
     1
  0
VPORT
  2
*ACTIVE
 70
     0
 10
0.0
 20
0.0
 11
1.0
 21
1.0
 12
209.9999999996653
 22
148.5000000003347
 13
0.0
 23
0.0
 14
0.5
 24
0.5
 15
0.5
 25
0.5
 16
0.0
 26
0.0
 36
1.0
 17
0.0
 27
0.0
 37
0.0
 40
282.54
 41
1.444043321299639
 42
50.0
 43
0.0
 44
0.0
 50
0.0
 51
0.0
 71
     0
 72
  1000
 73
     1
 74
     3
 75
     0
 76
     0
 77
     0
 78
     0
  0
ENDTAB
  0
TABLE
  2
LTYPE
 70
     2
  0
LTYPE
  2
CONTINUOUS
 70
     0
  3
Solid line
 72
    65
 73
     0
 40
0.0
  0
LTYPE
  2
DASHED
 70
     0
  3
_____ _____ _____ _____ _____
 72
    65
 73
     2
 40
7.5
 49
6.0
 49
-1.5
  0
ENDTAB
  0
TABLE
  2
LAYER
 70
     3
  0
LAYER
  2
0
 70
     0
 62
     7
  6
CONTINUOUS
  0
LAYER
  2
D-TTL-BAND
 70
     0
 62
     7
  6
CONTINUOUS
  0
LAYER
  2
D-BGD
 70
     0
 62
     7
  6
CONTINUOUS
  0
ENDTAB
  0
TABLE
  2
STYLE
 70
     3
  0
STYLE
  2
STANDARD
 70
     0
 40
0.0
 41
1.0
 50
0.0
 71
     0
 42
0.2
  3
txt
  4

  0
STYLE
  2
STANDARD-FC
 70
     0
 40
0.0
 41
1.0
 50
0.0
 71
     0
 42
0.2
  3
txt
  4
bigfont
  0
STYLE
  2
ＭＳ_ゴシック
 70
     0
 40
0.0
 41
1.0
 50
0.0
 71
     0
 42
0.2
  3
msgothic.ttc
  4

  0
ENDTAB
  0
TABLE
  2
VIEW
 70
     0
  0
ENDTAB
  0
TABLE
  2
UCS
 70
     0
  0
ENDTAB
  0
ENDSEC
  0
SECTION
  2
BLOCKS
  0
ENDSEC
  0
SECTION
  2
ENTITIES
  0
LINE
  5
73
  8
D-TTL-BAND
  6
CONTINUOUS
 62
     7
 10
53.0
 20
50.0
 30
0.0
 11
253.0
 21
50.0
 31
0.0
  0
LINE
  5
74
  8
D-TTL-BAND
  6
CONTINUOUS
 62
     7
 10
253.0
 20
50.0
 30
0.0
 11
253.0
 21
30.0
 31
0.0
  0
LINE
  5
75
  8
D-TTL-BAND
  6
CONTINUOUS
 62
     7
 10
253.0
 20
30.0
 30
0.0
 11
53.0
 21
30.0
 31
0.0
  0
LINE
  5
76
  8
D-TTL-BAND
  6
CONTINUOUS
 62
     7
 10
53.0
 20
30.0
 30
0.0
 11
53.0
 21
50.0
 31
0.0
  0
LINE
  5
77
  8
D-TTL-BAND
  6
CONTINUOUS
 62
     7
 10
53.0
 20
65.0
 30
0.0
 11
253.0
 21
65.0
 31
0.0
  0
LINE
  5
78
  8
D-TTL-BAND
  6
CONTINUOUS
 62
     7
 10
253.0
 20
65.0
 30
0.0
 11
253.0
 21
51.0
 31
0.0
  0
LINE
  5
79
  8
D-TTL-BAND
  6
CONTINUOUS
 62
     7
 10
253.0
 20
51.0
 30
0.0
 11
53.0
 21
51.0
 31
0.0
  0
LINE
  5
7A
  8
D-TTL-BAND
  6
CONTINUOUS
 62
     7
 10
53.0
 20
51.0
 30
0.0
 11
53.0
 21
65.0
 31
0.0
  0
LINE
  5
7B
  8
D-TTL-BAND
  6
CONTINUOUS
 62
     7
 10
53.0
 20
80.0
 30
0.0
 11
253.0
 21
80.0
 31
0.0
  0
LINE
  5
7C
  8
D-TTL-BAND
  6
CONTINUOUS
 62
     7
 10
253.0
 20
80.0
 30
0.0
 11
253.0
 21
66.0
 31
0.0
  0
LINE
  5
7D
  8
D-TTL-BAND
  6
CONTINUOUS
 62
     7
 10
253.0
 20
66.0
 30
0.0
 11
53.0
 21
66.0
 31
0.0
  0
LINE
  5
7E
  8
D-TTL-BAND
  6
CONTINUOUS
 62
     7
 10
53.0
 20
66.0
 30
0.0
 11
53.0
 21
80.0
 31
0.0
  0
LINE
  5
7F
  8
D-TTL-BAND
  6
CONTINUOUS
 62
     7
 10
53.0
 20
95.0
 30
0.0
 11
253.0
 21
95.0
 31
0.0
  0
LINE
  5
80
  8
D-TTL-BAND
  6
CONTINUOUS
 62
     7
 10
253.0
 20
95.0
 30
0.0
 11
253.0
 21
81.0
 31
0.0
  0
LINE
  5
81
  8
D-TTL-BAND
  6
CONTINUOUS
 62
     7
 10
253.0
 20
81.0
 30
0.0
 11
53.0
 21
81.0
 31
0.0
  0
LINE
  5
82
  8
D-TTL-BAND
  6
CONTINUOUS
 62
     7
 10
53.0
 20
81.0
 30
0.0
 11
53.0
 21
95.0
 31
0.0
  0
LINE
  5
83
  8
D-TTL-BAND
  6
CONTINUOUS
 62
     7
 10
53.0
 20
110.0
 30
0.0
 11
253.0
 21
110.0
 31
0.0
  0
LINE
  5
84
  8
D-TTL-BAND
  6
CONTINUOUS
 62
     7
 10
253.0
 20
110.0
 30
0.0
 11
253.0
 21
96.0
 31
0.0
  0
LINE
  5
85
  8
D-TTL-BAND
  6
CONTINUOUS
 62
     7
 10
253.0
 20
96.0
 30
0.0
 11
53.0
 21
96.0
 31
0.0
  0
LINE
  5
86
  8
D-TTL-BAND
  6
CONTINUOUS
 62
     7
 10
53.0
 20
96.0
 30
0.0
 11
53.0
 21
110.0
 31
0.0
  0
LINE
  5
87
  8
D-TTL-BAND
  6
CONTINUOUS
 62
     7
 10
53.0
 20
125.0
 30
0.0
 11
253.0
 21
125.0
 31
0.0
  0
LINE
  5
88
  8
D-TTL-BAND
  6
CONTINUOUS
 62
     7
 10
253.0
 20
125.0
 30
0.0
 11
253.0
 21
111.0
 31
0.0
  0
LINE
  5
89
  8
D-TTL-BAND
  6
CONTINUOUS
 62
     7
 10
253.0
 20
111.0
 30
0.0
 11
53.0
 21
111.0
 31
0.0
  0
LINE
  5
8A
  8
D-TTL-BAND
  6
CONTINUOUS
 62
     7
 10
53.0
 20
111.0
 30
0.0
 11
53.0
 21
125.0
 31
0.0
  0
LINE
  5
8B
  8
D-TTL-BAND
  6
CONTINUOUS
 62
     7
 10
53.0
 20
140.0
 30
0.0
 11
253.0
 21
140.0
 31
0.0
  0
LINE
  5
8C
  8
D-TTL-BAND
  6
CONTINUOUS
 62
     7
 10
253.0
 20
140.0
 30
0.0
 11
253.0
 21
126.0
 31
0.0
  0
LINE
  5
8D
  8
D-TTL-BAND
  6
CONTINUOUS
 62
     7
 10
253.0
 20
126.0
 30
0.0
 11
53.0
 21
126.0
 31
0.0
  0
LINE
  5
8E
  8
D-TTL-BAND
  6
CONTINUOUS
 62
     7
 10
53.0
 20
126.0
 30
0.0
 11
53.0
 21
140.0
 31
0.0
  0
LINE
  5
8F
  8
D-TTL-BAND
  6
CONTINUOUS
 62
     7
 10
33.0
 20
30.0
 30
0.0
 11
33.0
 21
95.0
 31
0.0
  0
LINE
  5
90
  8
D-TTL-BAND
  6
CONTINUOUS
 62
     7
 10
33.0
 20
95.0
 30
0.0
 11
42.0
 21
95.0
 31
0.0
  0
LINE
  5
91
  8
D-TTL-BAND
  6
CONTINUOUS
 62
     7
 10
42.0
 20
95.0
 30
0.0
 11
42.0
 21
30.0
 31
0.0
  0
LINE
  5
92
  8
D-TTL-BAND
  6
CONTINUOUS
 62
     7
 10
42.0
 20
30.0
 30
0.0
 11
33.0
 21
30.0
 31
0.0
  0
TEXT
  5
93
  8
D-TTL-BAND
  6
CONTINUOUS
 62
     7
 10
38.75639164039963
 20
45.0
 30
0.0
 40
2.681992337164751
  1
現況
 50
90.00000000000001
  7
ＭＳ_ゴシック
  0
LINE
  5
94
  8
D-TTL-BAND
  6
CONTINUOUS
 62
     7
 10
33.0
 20
96.0
 30
0.0
 11
33.0
 21
140.0
 31
0.0
  0
LINE
  5
95
  8
D-TTL-BAND
  6
CONTINUOUS
 62
     7
 10
33.0
 20
140.0
 30
0.0
 11
42.0
 21
140.0
 31
0.0
  0
LINE
  5
96
  8
D-TTL-BAND
  6
CONTINUOUS
 62
     7
 10
42.0
 20
140.0
 30
0.0
 11
42.0
 21
96.0
 31
0.0
  0
LINE
  5
97
  8
D-TTL-BAND
  6
CONTINUOUS
 62
     7
 10
42.0
 20
96.0
 30
0.0
 11
33.0
 21
96.0
 31
0.0
  0
TEXT
  5
98
  8
D-TTL-BAND
  6
CONTINUOUS
 62
     7
 10
38.75639164039963
 20
111.0
 30
0.0
 40
2.681992337164751
  1
計画
 50
90.00000000000001
  7
ＭＳ_ゴシック
  0
LINE
  5
99
  8
D-TTL-BAND
  6
CONTINUOUS
 62
     7
 10
43.0
 20
50.0
 30
0.0
 11
52.0
 21
50.0
 31
0.0
  0
LINE
  5
9A
  8
D-TTL-BAND
  6
CONTINUOUS
 62
     7
 10
52.0
 20
50.0
 30
0.0
 11
52.0
 21
30.0
 31
0.0
  0
LINE
  5
9B
  8
D-TTL-BAND
  6
CONTINUOUS
 62
     7
 10
52.0
 20
30.0
 30
0.0
 11
43.0
 21
30.0
 31
0.0
  0
LINE
  5
9C
  8
D-TTL-BAND
  6
CONTINUOUS
 62
     7
 10
43.0
 20
30.0
 30
0.0
 11
43.0
 21
50.0
 31
0.0
  0
TEXT
  5
9D
  8
D-TTL-BAND
  6
CONTINUOUS
 62
     7
 10
48.75639164039963
 20
31.5
 30
0.0
 40
2.681992337164751
  1
測点
 50
90.00000000000001
  7
ＭＳ_ゴシック
  0
LINE
  5
9E
  8
D-TTL-BAND
  6
CONTINUOUS
 62
     7
 10
43.0
 20
65.0
 30
0.0
 11
52.0
 21
65.0
 31
0.0
  0
LINE
  5
9F
  8
D-TTL-BAND
  6
CONTINUOUS
 62
     7
 10
52.0
 20
65.0
 30
0.0
 11
52.0
 21
51.0
 31
0.0
  0
LINE
  5
A0
  8
D-TTL-BAND
  6
CONTINUOUS
 62
     7
 10
52.0
 20
51.0
 30
0.0
 11
43.0
 21
51.0
 31
0.0
  0
LINE
  5
A1
  8
D-TTL-BAND
  6
CONTINUOUS
 62
     7
 10
43.0
 20
51.0
 30
0.0
 11
43.0
 21
65.0
 31
0.0
  0
TEXT
  5
A2
  8
D-TTL-BAND
  6
CONTINUOUS
 62
     7
 10
48.75639164039963
 20
52.5
 30
0.0
 40
2.681992337164751
  1
単距
 50
90.00000000000001
  7
ＭＳ_ゴシック
  0
LINE
  5
A3
  8
D-TTL-BAND
  6
CONTINUOUS
 62
     7
 10
43.0
 20
80.0
 30
0.0
 11
52.0
 21
80.0
 31
0.0
  0
LINE
  5
A4
  8
D-TTL-BAND
  6
CONTINUOUS
 62
     7
 10
52.0
 20
80.0
 30
0.0
 11
52.0
 21
66.0
 31
0.0
  0
LINE
  5
A5
  8
D-TTL-BAND
  6
CONTINUOUS
 62
     7
 10
52.0
 20
66.0
 30
0.0
 11
43.0
 21
66.0
 31
0.0
  0
LINE
  5
A6
  8
D-TTL-BAND
  6
CONTINUOUS
 62
     7
 10
43.0
 20
66.0
 30
0.0
 11
43.0
 21
80.0
 31
0.0
  0
TEXT
  5
A7
  8
D-TTL-BAND
  6
CONTINUOUS
 62
     7
 10
48.75639164039963
 20
67.5
 30
0.0
 40
2.681992337164751
  1
累距
 50
90.00000000000001
  7
ＭＳ_ゴシック
  0
LINE
  5
A8
  8
D-TTL-BAND
  6
CONTINUOUS
 62
     7
 10
43.0
 20
95.0
 30
0.0
 11
52.0
 21
95.0
 31
0.0
  0
LINE
  5
A9
  8
D-TTL-BAND
  6
CONTINUOUS
 62
     7
 10
52.0
 20
95.0
 30
0.0
 11
52.0
 21
81.0
 31
0.0
  0
LINE
  5
AA
  8
D-TTL-BAND
  6
CONTINUOUS
 62
     7
 10
52.0
 20
81.0
 30
0.0
 11
43.0
 21
81.0
 31
0.0
  0
LINE
  5
AB
  8
D-TTL-BAND
  6
CONTINUOUS
 62
     7
 10
43.0
 20
81.0
 30
0.0
 11
43.0
 21
95.0
 31
0.0
  0
LINE
  5
AC
  8
D-TTL-BAND
  6
CONTINUOUS
 62
     7
 10
43.0
 20
110.0
 30
0.0
 11
52.0
 21
110.0
 31
0.0
  0
LINE
  5
AD
  8
D-TTL-BAND
  6
CONTINUOUS
 62
     7
 10
52.0
 20
110.0
 30
0.0
 11
52.0
 21
96.0
 31
0.0
  0
LINE
  5
AE
  8
D-TTL-BAND
  6
CONTINUOUS
 62
     7
 10
52.0
 20
96.0
 30
0.0
 11
43.0
 21
96.0
 31
0.0
  0
LINE
  5
AF
  8
D-TTL-BAND
  6
CONTINUOUS
 62
     7
 10
43.0
 20
96.0
 30
0.0
 11
43.0
 21
110.0
 31
0.0
  0
TEXT
  5
B0
  8
D-TTL-BAND
  6
CONTINUOUS
 62
     7
 10
48.75639164039963
 20
97.5
 30
0.0
 40
2.681992337164751
  1
計画高
 50
90.00000000000001
  7
ＭＳ_ゴシック
  0
LINE
  5
B1
  8
D-TTL-BAND
  6
CONTINUOUS
 62
     7
 10
43.0
 20
125.0
 30
0.0
 11
52.0
 21
125.0
 31
0.0
  0
LINE
  5
B2
  8
D-TTL-BAND
  6
CONTINUOUS
 62
     7
 10
52.0
 20
125.0
 30
0.0
 11
52.0
 21
111.0
 31
0.0
  0
LINE
  5
B3
  8
D-TTL-BAND
  6
CONTINUOUS
 62
     7
 10
52.0
 20
111.0
 30
0.0
 11
43.0
 21
111.0
 31
0.0
  0
LINE
  5
B4
  8
D-TTL-BAND
  6
CONTINUOUS
 62
     7
 10
43.0
 20
111.0
 30
0.0
 11
43.0
 21
125.0
 31
0.0
  0
LINE
  5
B5
  8
D-TTL-BAND
  6
CONTINUOUS
 62
     7
 10
43.0
 20
140.0
 30
0.0
 11
52.0
 21
140.0
 31
0.0
  0
LINE
  5
B6
  8
D-TTL-BAND
  6
CONTINUOUS
 62
     7
 10
52.0
 20
140.0
 30
0.0
 11
52.0
 21
126.0
 31
0.0
  0
LINE
  5
B7
  8
D-TTL-BAND
  6
CONTINUOUS
 62
     7
 10
52.0
 20
126.0
 30
0.0
 11
43.0
 21
126.0
 31
0.0
  0
LINE
  5
B8
  8
D-TTL-BAND
  6
CONTINUOUS
 62
     7
 10
43.0
 20
126.0
 30
0.0
 11
43.0
 21
140.0
 31
0.0
  0
TEXT
  5
B9
  8
D-TTL-BAND
  6
CONTINUOUS
 62
     7
 10
79.24999616858238
 20
31.0
 30
0.0
 40
2.681992337164751
  1
A
 50
90.00000000000001
  7
ＭＳ_ゴシック
  0
TEXT
  5
BA
  8
D-TTL-BAND
  6
CONTINUOUS
 62
     7
 10
133.4659961685824
 20
31.0
 30
0.0
 40
2.681992337164751
  1
肩
 50
90.00000000000001
  7
ＭＳ_ゴシック
  0
TEXT
  5
BB
  8
D-TTL-BAND
  6
CONTINUOUS
 62
     7
 10
181.2699961685824
 20
31.0
 30
0.0
 40
2.681992337164751
  1
交点
 50
90.00000000000001
  7
ＭＳ_ゴシック
  0
TEXT
  5
BC
  8
D-TTL-BAND
  6
CONTINUOUS
 62
     7
 10
213.1639961685823
 20
31.0
 30
0.0
 40
2.681992337164751
  1
E
 50
90.00000000000001
  7
ＭＳ_ゴシック
  0
TEXT
  5
BD
  8
D-TTL-BAND
  6
CONTINUOUS
 62
     7
 10
79.24999616858238
 20
55.2802549998395
 30
0.0
 40
2.681992337164751
  1
0.000
 50
90.00000000000001
  7
ＭＳ_ゴシック
 72
     2
 11
77.909
 21
64.0
 31
0.0
  0
TEXT
  5
BE
  8
D-TTL-BAND
  6
CONTINUOUS
 62
     7
 10
133.4659961685824
 20
53.5363059998074
 30
0.0
 40
2.681992337164751
  1
27.108
 50
90.00000000000001
  7
ＭＳ_ゴシック
 72
     2
 11
132.125
 21
64.0
 31
0.0
  0
TEXT
  5
BF
  8
D-TTL-BAND
  6
CONTINUOUS
 62
     7
 10
181.2699961685824
 20
53.5363059998074
 30
0.0
 40
2.681992337164751
  1
23.902
 50
90.00000000000001
  7
ＭＳ_ゴシック
 72
     2
 11
179.929
 21
64.0
 31
0.0
  0
TEXT
  5
C0
  8
D-TTL-BAND
  6
CONTINUOUS
 62
     7
 10
213.1639961685823
 20
53.5363059998074
 30
0.0
 40
2.681992337164751
  1
15.947
 50
90.00000000000001
  7
ＭＳ_ゴシック
 72
     2
 11
211.823
 21
64.0
 31
0.0
  0
TEXT
  5
C1
  8
D-TTL-BAND
  6
CONTINUOUS
 62
     7
 10
79.24999616858238
 20
70.2802549998395
 30
0.0
 40
2.681992337164751
  1
0.000
 50
90.00000000000001
  7
ＭＳ_ゴシック
 72
     2
 11
77.909
 21
79.0
 31
0.0
  0
TEXT
  5
C2
  8
D-TTL-BAND
  6
CONTINUOUS
 62
     7
 10
133.4659961685824
 20
68.5363059998074
 30
0.0
 40
2.681992337164751
  1
27.108
 50
90.00000000000001
  7
ＭＳ_ゴシック
 72
     2
 11
132.125
 21
79.0
 31
0.0
  0
TEXT
  5
C3
  8
D-TTL-BAND
  6
CONTINUOUS
 62
     7
 10
181.2699961685824
 20
68.5363059998074
 30
0.0
 40
2.681992337164751
  1
51.010
 50
90.00000000000001
  7
ＭＳ_ゴシック
 72
     2
 11
179.929
 21
79.0
 31
0.0
  0
TEXT
  5
C4
  8
D-TTL-BAND
  6
CONTINUOUS
 62
     7
 10
213.1639961685823
 20
68.5363059998074
 30
0.0
 40
2.681992337164751
  1
66.957
 50
90.00000000000001
  7
ＭＳ_ゴシック
 72
     2
 11
211.823
 21
79.0
 31
0.0
  0
TEXT
  5
C5
  8
D-TTL-BAND
  6
CONTINUOUS
 62
     7
 10
215.8430358556101
 20
161.9797998207063
 30
0.0
 40
1.915708812260537
  1
道路
  7
ＭＳ_ゴシック
  0
LINE
  5
C6
  8
D-TTL-BAND
  6
CONTINUOUS
 62
     7
 10
28.0
 20
25.0
 30
0.0
 11
48.0
 21
25.0
 31
0.0
  0
LINE
  5
C7
  8
D-TTL-BAND
  6
CONTINUOUS
 62
     7
 10
48.0
 20
25.0
 30
0.0
 11
46.5
 21
25.375
 31
0.0
  0
TEXT
  5
C8
  8
D-TTL-BAND
  6
CONTINUOUS
 62
     7
 10
32.75
 20
21.99360835960037
 30
0.0
 40
2.681992337164751
  1
1：500
  7
ＭＳ_ゴシック
  0
LINE
  5
C9
  8
D-TTL-BAND
  6
CONTINUOUS
 62
     7
 10
28.0
 20
25.0
 30
0.0
 11
28.0
 21
45.0
 31
0.0
  0
LINE
  5
CA
  8
D-TTL-BAND
  6
CONTINUOUS
 62
     7
 10
28.0
 20
45.0
 30
0.0
 11
27.625
 21
43.5
 31
0.0
  0
TEXT
  5
CB
  8
D-TTL-BAND
  6
CONTINUOUS
 62
     7
 10
27.50639164039963
 20
29.75
 30
0.0
 40
2.681992337164751
  1
1：100
 50
90.00000000000001
  7
ＭＳ_ゴシック
  0
LINE
  5
CC
  8
D-TTL-BAND
  6
CONTINUOUS
 62
     7
 10
33.0
 20
142.0
 30
0.0
 11
253.0
 21
142.0
 31
0.0
  0
TEXT
  5
CD
  8
D-TTL-BAND
  6
CONTINUOUS
 62
     7
 10
28.5
 20
143.2051547994291
 30
0.0
 40
3.831417624521073
  1
DL=10.000
  7
ＭＳ_ゴシック
  0
LINE
  5
CE
  8
D-TTL-BAND
  6
CONTINUOUS
 62
     7
 10
53.0
 20
142.0
 30
0.0
 11
53.0
 21
262.0
 31
0.0
  0
LINE
  5
CF
  8
D-TTL-BAND
  6
CONTINUOUS
 62
     7
 10
53.0
 20
192.0
 30
0.0
 11
38.0
 21
192.0
 31
0.0
  0
TEXT
  5
D0
  8
D-TTL-BAND
  6
CONTINUOUS
 62
     7
 10
41.5
 20
192.9936083596004
 30
0.0
 40
2.681992337164751
  1
15.000
  7
ＭＳ_ゴシック
  0
LINE
  5
D1
  8
D-TTL-BAND
  6
CONTINUOUS
 62
     7
 10
53.0
 20
242.0
 30
0.0
 11
38.0
 21
242.0
 31
0.0
  0
TEXT
  5
D2
  8
D-TTL-BAND
  6
CONTINUOUS
 62
     7
 10
41.5
 20
242.9936083596004
 30
0.0
 40
2.681992337164751
  1
20.000
  7
ＭＳ_ゴシック
  0
LINE
  5
D3
  8
D-TTL-BAND
  6
CONTINUOUS
 62
     7
 10
53.0
 20
152.0
 30
0.0
 11
48.0
 21
152.0
 31
0.0
  0
LINE
  5
D4
  8
D-TTL-BAND
  6
CONTINUOUS
 62
     7
 10
53.0
 20
162.0
 30
0.0
 11
48.0
 21
162.0
 31
0.0
  0
LINE
  5
D5
  8
D-TTL-BAND
  6
CONTINUOUS
 62
     7
 10
53.0
 20
172.0
 30
0.0
 11
48.0
 21
172.0
 31
0.0
  0
LINE
  5
D6
  8
D-TTL-BAND
  6
CONTINUOUS
 62
     7
 10
53.0
 20
182.0
 30
0.0
 11
48.0
 21
182.0
 31
0.0
  0
LINE
  5
D7
  8
D-TTL-BAND
  6
CONTINUOUS
 62
     7
 10
53.0
 20
202.0
 30
0.0
 11
48.0
 21
202.0
 31
0.0
  0
LINE
  5
D8
  8
D-TTL-BAND
  6
CONTINUOUS
 62
     7
 10
53.0
 20
212.0
 30
0.0
 11
48.0
 21
212.0
 31
0.0
  0
LINE
  5
D9
  8
D-TTL-BAND
  6
CONTINUOUS
 62
     7
 10
53.0
 20
222.0
 30
0.0
 11
48.0
 21
222.0
 31
0.0
  0
LINE
  5
DA
  8
D-TTL-BAND
  6
CONTINUOUS
 62
     7
 10
53.0
 20
232.0
 30
0.0
 11
48.0
 21
232.0
 31
0.0
  0
LINE
  5
DB
  8
D-TTL-BAND
  6
CONTINUOUS
 62
     7
 10
53.0
 20
252.0
 30
0.0
 11
48.0
 21
252.0
 31
0.0
  0
LINE
  5
DC
  8
D-TTL-BAND
  6
CONTINUOUS
 62
     7
 10
53.0
 20
262.0
 30
0.0
 11
48.0
 21
262.0
 31
0.0
  0
TEXT
  5
DD
  8
D-TTL-BAND
  6
CONTINUOUS
 62
     7
 10
48.75639164039963
 20
82.5
 30
0.0
 40
2.681992337164751
  1
地盤高
 50
90.00000000000001
  7
ＭＳ_ゴシック
  0
TEXT
  5
DE
  8
D-TTL-BAND
  6
CONTINUOUS
 62
     7
 10
48.75639164039963
 20
112.5
 30
0.0
 40
2.681992337164751
  1
切土
 50
90.00000000000001
  7
ＭＳ_ゴシック
  0
TEXT
  5
DF
  8
D-TTL-BAND
  6
CONTINUOUS
 62
     7
 10
48.75639164039963
 20
127.5
 30
0.0
 40
2.681992337164751
  1
盛土
 50
90.00000000000001
  7
ＭＳ_ゴシック
  0
LINE
  5
E0
  8
D-TTL-BAND
  6
CONTINUOUS
 62
     7
 10
78.0
 20
246.7
 30
0.0
 11
78.0
 21
142.0
 31
0.0
  0
LINE
  5
E1
  8
D-TTL-BAND
  6
CONTINUOUS
 62
     7
 10
78.0
 20
50.0
 30
0.0
 11
78.0
 21
51.0
 31
0.0
  0
LINE
  5
E2
  8
D-TTL-BAND
  6
CONTINUOUS
 62
     7
 10
78.0
 20
65.0
 30
0.0
 11
78.0
 21
66.0
 31
0.0
  0
LINE
  5
E3
  8
D-TTL-BAND
  6
CONTINUOUS
 62
     7
 10
78.0
 20
80.0
 30
0.0
 11
78.0
 21
81.0
 31
0.0
  0
LINE
  5
E4
  8
D-TTL-BAND
  6
CONTINUOUS
 62
     7
 10
78.0
 20
95.0
 30
0.0
 11
78.0
 21
96.0
 31
0.0
  0
LINE
  5
E5
  8
D-TTL-BAND
  6
CONTINUOUS
 62
     7
 10
78.0
 20
110.0
 30
0.0
 11
78.0
 21
111.0
 31
0.0
  0
LINE
  5
E6
  8
D-TTL-BAND
  6
CONTINUOUS
 62
     7
 10
78.0
 20
125.0
 30
0.0
 11
78.0
 21
126.0
 31
0.0
  0
LINE
  5
E7
  8
D-TTL-BAND
  6
CONTINUOUS
 62
     7
 10
132.216
 20
235.4
 30
0.0
 11
132.216
 21
142.0
 31
0.0
  0
LINE
  5
E8
  8
D-TTL-BAND
  6
CONTINUOUS
 62
     7
 10
132.216
 20
50.0
 30
0.0
 11
132.216
 21
51.0
 31
0.0
  0
LINE
  5
E9
  8
D-TTL-BAND
  6
CONTINUOUS
 62
     7
 10
132.216
 20
65.0
 30
0.0
 11
132.216
 21
66.0
 31
0.0
  0
LINE
  5
EA
  8
D-TTL-BAND
  6
CONTINUOUS
 62
     7
 10
132.216
 20
80.0
 30
0.0
 11
132.216
 21
81.0
 31
0.0
  0
LINE
  5
EB
  8
D-TTL-BAND
  6
CONTINUOUS
 62
     7
 10
132.216
 20
95.0
 30
0.0
 11
132.216
 21
96.0
 31
0.0
  0
LINE
  5
EC
  8
D-TTL-BAND
  6
CONTINUOUS
 62
     7
 10
132.216
 20
110.0
 30
0.0
 11
132.216
 21
111.0
 31
0.0
  0
LINE
  5
ED
  8
D-TTL-BAND
  6
CONTINUOUS
 62
     7
 10
132.216
 20
125.0
 30
0.0
 11
132.216
 21
126.0
 31
0.0
  0
LINE
  5
EE
  8
D-TTL-BAND
  6
CONTINUOUS
 62
     7
 10
180.02
 20
192.5
 30
0.0
 11
180.02
 21
142.0
 31
0.0
  0
LINE
  5
EF
  8
D-TTL-BAND
  6
CONTINUOUS
 62
     7
 10
180.02
 20
50.0
 30
0.0
 11
180.02
 21
51.0
 31
0.0
  0
LINE
  5
F0
  8
D-TTL-BAND
  6
CONTINUOUS
 62
     7
 10
180.02
 20
65.0
 30
0.0
 11
180.02
 21
66.0
 31
0.0
  0
LINE
  5
F1
  8
D-TTL-BAND
  6
CONTINUOUS
 62
     7
 10
180.02
 20
80.0
 30
0.0
 11
180.02
 21
81.0
 31
0.0
  0
LINE
  5
F2
  8
D-TTL-BAND
  6
CONTINUOUS
 62
     7
 10
180.02
 20
95.0
 30
0.0
 11
180.02
 21
96.0
 31
0.0
  0
LINE
  5
F3
  8
D-TTL-BAND
  6
CONTINUOUS
 62
     7
 10
180.02
 20
110.0
 30
0.0
 11
180.02
 21
111.0
 31
0.0
  0
LINE
  5
F4
  8
D-TTL-BAND
  6
CONTINUOUS
 62
     7
 10
180.02
 20
125.0
 30
0.0
 11
180.02
 21
126.0
 31
0.0
  0
LINE
  5
F5
  8
D-TTL-BAND
  6
CONTINUOUS
 62
     7
 10
211.914
 20
159.9
 30
0.0
 11
211.914
 21
142.0
 31
0.0
  0
LINE
  5
F6
  8
D-TTL-BAND
  6
CONTINUOUS
 62
     7
 10
211.914
 20
50.0
 30
0.0
 11
211.914
 21
51.0
 31
0.0
  0
LINE
  5
F7
  8
D-TTL-BAND
  6
CONTINUOUS
 62
     7
 10
211.914
 20
65.0
 30
0.0
 11
211.914
 21
66.0
 31
0.0
  0
LINE
  5
F8
  8
D-TTL-BAND
  6
CONTINUOUS
 62
     7
 10
211.914
 20
80.0
 30
0.0
 11
211.914
 21
81.0
 31
0.0
  0
LINE
  5
F9
  8
D-TTL-BAND
  6
CONTINUOUS
 62
     7
 10
211.914
 20
95.0
 30
0.0
 11
211.914
 21
96.0
 31
0.0
  0
LINE
  5
FA
  8
D-TTL-BAND
  6
CONTINUOUS
 62
     7
 10
211.914
 20
110.0
 30
0.0
 11
211.914
 21
111.0
 31
0.0
  0
LINE
  5
FB
  8
D-TTL-BAND
  6
CONTINUOUS
 62
     7
 10
211.914
 20
125.0
 30
0.0
 11
211.914
 21
126.0
 31
0.0
  0
LINE
  5
FC
  8
D-BGD
  6
CONTINUOUS
 62
     7
 10
78.0
 20
246.7
 30
0.0
 11
83.096
 21
245.8
 31
0.0
  0
LINE
  5
FD
  8
D-BGD
  6
CONTINUOUS
 62
     7
 10
83.096
 20
245.8
 30
0.0
 11
95.628
 21
244.8
 31
0.0
  0
LINE
  5
FE
  8
D-BGD
  6
CONTINUOUS
 62
     7
 10
95.628
 20
244.8
 30
0.0
 11
100.17
 21
242.1
 31
0.0
  0
LINE
  5
FF
  8
D-BGD
  6
CONTINUOUS
 62
     7
 10
100.17
 20
242.1
 30
0.0
 11
107.082
 21
233.0
 31
0.0
  0
LINE
  5
100
  8
D-BGD
  6
CONTINUOUS
 62
     7
 10
107.082
 20
233.0
 30
0.0
 11
119.366
 21
233.4
 31
0.0
  0
LINE
  5
101
  8
D-BGD
  6
CONTINUOUS
 62
     7
 10
119.366
 20
233.4
 30
0.0
 11
132.216
 21
235.4
 31
0.0
  0
LINE
  5
102
  8
D-BGD
  6
CONTINUOUS
 62
     7
 10
132.216
 20
235.4
 30
0.0
 11
147.37
 21
218.1
 31
0.0
  0
LINE
  5
103
  8
D-BGD
  6
CONTINUOUS
 62
     7
 10
147.37
 20
218.1
 30
0.0
 11
160.316
 21
209.8
 31
0.0
  0
LINE
  5
104
  8
D-BGD
  6
CONTINUOUS
 62
     7
 10
160.316
 20
209.8
 30
0.0
 11
177.864
 21
194.2
 31
0.0
  0
LINE
  5
105
  8
D-BGD
  6
CONTINUOUS
 62
     7
 10
177.864
 20
194.2
 30
0.0
 11
180.02
 21
192.5
 31
0.0
  0
LINE
  5
106
  8
D-BGD
  6
CONTINUOUS
 62
     7
 10
180.02
 20
192.5
 30
0.0
 11
189.002
 21
186.7
 31
0.0
  0
LINE
  5
107
  8
D-BGD
  6
CONTINUOUS
 62
     7
 10
189.002
 20
186.7
 30
0.0
 11
200.288
 21
181.4
 31
0.0
  0
LINE
  5
108
  8
D-BGD
  6
CONTINUOUS
 62
     7
 10
200.288
 20
181.4
 30
0.0
 11
209.244
 21
162.3
 31
0.0
  0
LINE
  5
109
  8
D-BGD
  6
CONTINUOUS
 62
     7
 10
209.244
 20
162.3
 30
0.0
 11
211.914
 21
159.9
 31
0.0
  0
LINE
  5
10A
  8
D-BGD
  6
CONTINUOUS
 62
     7
 10
211.914
 20
159.9
 30
0.0
 11
218.914
 21
160.3
 31
0.0
  0
LINE
  5
10B
  8
D-BGD
  6
DASHED
 62
     7
 10
225.014
 20
158.8
 30
0.0
 11
225.014
 21
160.8
 31
0.0
  0
LINE
  5
10C
  8
D-BGD
  6
CONTINUOUS
 62
     7
 10
218.914
 20
160.3
 30
0.0
 11
225.014
 21
160.8
 31
0.0
  0
TEXT
  5
10D
  8
D-TTL-BAND
  6
CONTINUOUS
 62
     7
 10
79.24999616858238
 20
85.2802549998395
 30
0.0
 40
2.681992337164751
  1
20.47
 50
90.00000000000001
  7
ＭＳ_ゴシック
 72
     2
 11
77.909
 21
94.0
 31
0.0
  0
TEXT
  5
10E
  8
D-TTL-BAND
  6
CONTINUOUS
 62
     7
 10
133.4659961685824
 20
85.2802549998395
 30
0.0
 40
2.681992337164751
  1
19.34
 50
90.00000000000001
  7
ＭＳ_ゴシック
 72
     2
 11
132.125
 21
94.0
 31
0.0
  0
TEXT
  5
10F
  8
D-TTL-BAND
  6
CONTINUOUS
 62
     7
 10
181.2699961685824
 20
85.2802549998395
 30
0.0
 40
2.681992337164751
  1
15.05
 50
90.00000000000001
  7
ＭＳ_ゴシック
 72
     2
 11
179.929
 21
94.0
 31
0.0
  0
TEXT
  5
110
  8
D-TTL-BAND
  6
CONTINUOUS
 62
     7
 10
213.1639961685823
 20
85.2802549998395
 30
0.0
 40
2.681992337164751
  1
11.79
 50
90.00000000000001
  7
ＭＳ_ゴシック
 72
     2
 11
211.823
 21
94.0
 31
0.0
  0
POLYLINE
  5
111
  8
D-BGD
  6
CONTINUOUS
 62
     7
 66
     1
 10
0.0
 20
0.0
 30
0.0
 70
   128
  0
VERTEX
  5
11A
  8
D-BGD
  6
CONTINUOUS
 62
     7
 10
9.999999999665306
 20
287.0000000003347
 30
0.0
  0
VERTEX
  5
11B
  8
D-BGD
  6
CONTINUOUS
 62
     7
 10
409.9999999996653
 20
287.0000000003347
 30
0.0
  0
VERTEX
  5
11C
  8
D-BGD
  6
CONTINUOUS
 62
     7
 10
409.9999999996653
 20
10.00000000033469
 30
0.0
  0
VERTEX
  5
11D
  8
D-BGD
  6
CONTINUOUS
 62
     7
 10
9.999999999665306
 20
10.00000000033469
 30
0.0
  0
VERTEX
  5
11E
  8
D-BGD
  6
CONTINUOUS
 62
     7
 10
9.999999999665306
 20
287.0000000003347
 30
0.0
  0
SEQEND
  5
11F
  8
D-BGD
  6
CONTINUOUS
 62
     7
  0
ENDSEC
  0
EOF
